ISO-10303-21;
HEADER;
/* Generated by software containing ST-Developer
 * from STEP Tools, Inc. (www.steptools.com) 
 */

FILE_DESCRIPTION(
/* description */ (''),
/* implementation_level */ '2;1');

FILE_NAME(
/* name */ 
'M:\\Inventor Vorlage\\1_I-Baukasten\\4_Abdeckelemente\\1_Abdeckung_de
r_Stirnseite\\Nut_8\\AI-1142_Abdeckkappe_120x120_schwarz-8\\AI-1142_Ab
deckkappe_120x120-8.stp',
/* time_stamp */ '2020-07-20T13:46:00+02:00',
/* author */ ('jmaun'),
/* organization */ ('maunsystem'),
/* preprocessor_version */ 'ST-DEVELOPER v17',
/* originating_system */ 'Autodesk Inventor 2019',
/* authorisation */ '');

FILE_SCHEMA (('AUTOMOTIVE_DESIGN { 1 0 10303 214 3 1 1 }'));
ENDSEC;

DATA;
#10=MECHANICAL_DESIGN_GEOMETRIC_PRESENTATION_REPRESENTATION('',(#272,#273,
#274,#275,#276,#277,#278,#279,#280,#281,#282,#283,#284,#285,#286,#287,#288,
#289,#290),#571);
#11=SHAPE_REPRESENTATION_RELATIONSHIP('SRR','None',#578,#12);
#12=ADVANCED_BREP_SHAPE_REPRESENTATION('',(#13),#570);
#13=MANIFOLD_SOLID_BREP('Volumenk\X\F6rper1',#309);
#14=(
BOUNDED_SURFACE()
B_SPLINE_SURFACE(2,2,((#491,#492,#493),(#494,#495,#496),(#497,#498,#499)),
 .UNSPECIFIED.,.F.,.F.,.F.)
B_SPLINE_SURFACE_WITH_KNOTS((3,3),(3,3),(-1.5707963267949,0.),(-3.14159265358979,
-1.5707963267949),.UNSPECIFIED.)
GEOMETRIC_REPRESENTATION_ITEM()
RATIONAL_B_SPLINE_SURFACE(((1.,0.707106781186548,1.),(0.707106781186549,
0.500000000000001,0.707106781186549),(1.,0.707106781186548,1.)))
REPRESENTATION_ITEM('')
SURFACE()
);
#15=(
BOUNDED_SURFACE()
B_SPLINE_SURFACE(2,2,((#513,#514,#515),(#516,#517,#518),(#519,#520,#521)),
 .UNSPECIFIED.,.F.,.F.,.F.)
B_SPLINE_SURFACE_WITH_KNOTS((3,3),(3,3),(-1.5707963267949,0.),(1.5707963267949,
3.14159265358979),.UNSPECIFIED.)
GEOMETRIC_REPRESENTATION_ITEM()
RATIONAL_B_SPLINE_SURFACE(((1.,0.707106781186548,1.),(0.707106781186549,
0.500000000000001,0.707106781186549),(1.,0.707106781186548,1.)))
REPRESENTATION_ITEM('')
SURFACE()
);
#16=(
BOUNDED_SURFACE()
B_SPLINE_SURFACE(2,2,((#537,#538,#539),(#540,#541,#542),(#543,#544,#545)),
 .UNSPECIFIED.,.F.,.F.,.F.)
B_SPLINE_SURFACE_WITH_KNOTS((3,3),(3,3),(-1.5707963267949,0.),(0.,1.5707963267949),
 .UNSPECIFIED.)
GEOMETRIC_REPRESENTATION_ITEM()
RATIONAL_B_SPLINE_SURFACE(((1.,0.707106781186548,1.),(0.707106781186546,
0.499999999999999,0.707106781186546),(1.,0.707106781186548,1.)))
REPRESENTATION_ITEM('')
SURFACE()
);
#17=(
BOUNDED_SURFACE()
B_SPLINE_SURFACE(2,2,((#557,#558,#559),(#560,#561,#562),(#563,#564,#565)),
 .UNSPECIFIED.,.F.,.F.,.F.)
B_SPLINE_SURFACE_WITH_KNOTS((3,3),(3,3),(-1.5707963267949,0.),(-1.5707963267949,
0.),.UNSPECIFIED.)
GEOMETRIC_REPRESENTATION_ITEM()
RATIONAL_B_SPLINE_SURFACE(((1.,0.707106781186548,1.),(0.707106781186547,
0.5,0.707106781186547),(1.,0.707106781186548,1.)))
REPRESENTATION_ITEM('')
SURFACE()
);
#18=CYLINDRICAL_SURFACE('',#334,2.5);
#19=CYLINDRICAL_SURFACE('',#338,4.);
#20=CYLINDRICAL_SURFACE('',#340,4.);
#21=CYLINDRICAL_SURFACE('',#344,2.5);
#22=CYLINDRICAL_SURFACE('',#349,4.);
#23=CYLINDRICAL_SURFACE('',#351,2.5);
#24=CYLINDRICAL_SURFACE('',#356,4.);
#25=CYLINDRICAL_SURFACE('',#358,2.5);
#26=FACE_OUTER_BOUND('',#44,.T.);
#27=FACE_OUTER_BOUND('',#45,.T.);
#28=FACE_OUTER_BOUND('',#46,.T.);
#29=FACE_OUTER_BOUND('',#47,.T.);
#30=FACE_OUTER_BOUND('',#48,.T.);
#31=FACE_OUTER_BOUND('',#49,.T.);
#32=FACE_OUTER_BOUND('',#50,.T.);
#33=FACE_OUTER_BOUND('',#51,.T.);
#34=FACE_OUTER_BOUND('',#52,.T.);
#35=FACE_OUTER_BOUND('',#53,.T.);
#36=FACE_OUTER_BOUND('',#54,.T.);
#37=FACE_OUTER_BOUND('',#55,.T.);
#38=FACE_OUTER_BOUND('',#56,.T.);
#39=FACE_OUTER_BOUND('',#57,.T.);
#40=FACE_OUTER_BOUND('',#58,.T.);
#41=FACE_OUTER_BOUND('',#59,.T.);
#42=FACE_OUTER_BOUND('',#60,.T.);
#43=FACE_OUTER_BOUND('',#61,.T.);
#44=EDGE_LOOP('',(#186,#187,#188,#189,#190,#191,#192,#193));
#45=EDGE_LOOP('',(#194,#195,#196,#197));
#46=EDGE_LOOP('',(#198,#199,#200,#201));
#47=EDGE_LOOP('',(#202,#203,#204,#205));
#48=EDGE_LOOP('',(#206,#207,#208,#209));
#49=EDGE_LOOP('',(#210,#211,#212,#213));
#50=EDGE_LOOP('',(#214,#215,#216,#217));
#51=EDGE_LOOP('',(#218,#219,#220,#221));
#52=EDGE_LOOP('',(#222,#223,#224,#225));
#53=EDGE_LOOP('',(#226,#227,#228,#229));
#54=EDGE_LOOP('',(#230,#231,#232,#233));
#55=EDGE_LOOP('',(#234,#235,#236,#237));
#56=EDGE_LOOP('',(#238,#239,#240,#241));
#57=EDGE_LOOP('',(#242,#243,#244,#245));
#58=EDGE_LOOP('',(#246,#247,#248,#249));
#59=EDGE_LOOP('',(#250,#251,#252,#253));
#60=EDGE_LOOP('',(#254,#255,#256,#257));
#61=EDGE_LOOP('',(#258,#259,#260,#261,#262,#263,#264,#265));
#62=CIRCLE('',#330,4.);
#63=CIRCLE('',#331,4.);
#64=CIRCLE('',#332,4.);
#65=CIRCLE('',#333,4.);
#66=CIRCLE('',#335,2.5);
#67=CIRCLE('',#336,2.5);
#68=CIRCLE('',#339,4.);
#69=CIRCLE('',#341,4.);
#70=CIRCLE('',#342,1.5);
#71=CIRCLE('',#343,2.5);
#72=CIRCLE('',#345,2.5);
#73=CIRCLE('',#346,2.5);
#74=CIRCLE('',#348,1.5);
#75=CIRCLE('',#350,4.);
#76=CIRCLE('',#352,2.5);
#77=CIRCLE('',#353,2.5);
#78=CIRCLE('',#355,1.5);
#79=CIRCLE('',#357,4.);
#80=CIRCLE('',#359,2.5);
#81=CIRCLE('',#361,1.5);
#82=LINE('',#457,#102);
#83=LINE('',#461,#103);
#84=LINE('',#465,#104);
#85=LINE('',#469,#105);
#86=LINE('',#476,#106);
#87=LINE('',#479,#107);
#88=LINE('',#481,#108);
#89=LINE('',#482,#109);
#90=LINE('',#485,#110);
#91=LINE('',#490,#111);
#92=LINE('',#507,#112);
#93=LINE('',#510,#113);
#94=LINE('',#512,#114);
#95=LINE('',#525,#115);
#96=LINE('',#531,#116);
#97=LINE('',#534,#117);
#98=LINE('',#536,#118);
#99=LINE('',#549,#119);
#100=LINE('',#554,#120);
#101=LINE('',#555,#121);
#102=VECTOR('',#367,1.);
#103=VECTOR('',#370,1.);
#104=VECTOR('',#373,1.);
#105=VECTOR('',#376,1.);
#106=VECTOR('',#383,1.);
#107=VECTOR('',#386,1.);
#108=VECTOR('',#389,1.);
#109=VECTOR('',#390,1.);
#110=VECTOR('',#393,1.);
#111=VECTOR('',#400,1.);
#112=VECTOR('',#409,1.);
#113=VECTOR('',#412,1.);
#114=VECTOR('',#415,1.);
#115=VECTOR('',#420,1.);
#116=VECTOR('',#427,1.);
#117=VECTOR('',#430,1.);
#118=VECTOR('',#433,1.);
#119=VECTOR('',#438,1.);
#120=VECTOR('',#445,1.);
#121=VECTOR('',#446,1.);
#122=VERTEX_POINT('',#455);
#123=VERTEX_POINT('',#456);
#124=VERTEX_POINT('',#458);
#125=VERTEX_POINT('',#460);
#126=VERTEX_POINT('',#462);
#127=VERTEX_POINT('',#464);
#128=VERTEX_POINT('',#466);
#129=VERTEX_POINT('',#468);
#130=VERTEX_POINT('',#472);
#131=VERTEX_POINT('',#473);
#132=VERTEX_POINT('',#475);
#133=VERTEX_POINT('',#477);
#134=VERTEX_POINT('',#484);
#135=VERTEX_POINT('',#488);
#136=VERTEX_POINT('',#500);
#137=VERTEX_POINT('',#504);
#138=VERTEX_POINT('',#506);
#139=VERTEX_POINT('',#508);
#140=VERTEX_POINT('',#524);
#141=VERTEX_POINT('',#528);
#142=VERTEX_POINT('',#530);
#143=VERTEX_POINT('',#532);
#144=VERTEX_POINT('',#548);
#145=VERTEX_POINT('',#552);
#146=EDGE_CURVE('',#122,#123,#82,.T.);
#147=EDGE_CURVE('',#123,#124,#62,.T.);
#148=EDGE_CURVE('',#124,#125,#83,.T.);
#149=EDGE_CURVE('',#125,#126,#63,.T.);
#150=EDGE_CURVE('',#126,#127,#84,.T.);
#151=EDGE_CURVE('',#127,#128,#64,.T.);
#152=EDGE_CURVE('',#128,#129,#85,.T.);
#153=EDGE_CURVE('',#129,#122,#65,.T.);
#154=EDGE_CURVE('',#130,#131,#66,.T.);
#155=EDGE_CURVE('',#132,#130,#86,.T.);
#156=EDGE_CURVE('',#132,#133,#67,.T.);
#157=EDGE_CURVE('',#133,#131,#87,.T.);
#158=EDGE_CURVE('',#130,#123,#88,.T.);
#159=EDGE_CURVE('',#132,#122,#89,.T.);
#160=EDGE_CURVE('',#134,#129,#90,.T.);
#161=EDGE_CURVE('',#134,#132,#68,.T.);
#162=EDGE_CURVE('',#130,#135,#69,.T.);
#163=EDGE_CURVE('',#135,#124,#91,.T.);
#164=EDGE_CURVE('',#131,#136,#70,.T.);
#165=EDGE_CURVE('',#135,#136,#71,.T.);
#166=EDGE_CURVE('',#134,#137,#72,.T.);
#167=EDGE_CURVE('',#138,#134,#92,.T.);
#168=EDGE_CURVE('',#138,#139,#73,.T.);
#169=EDGE_CURVE('',#139,#137,#93,.T.);
#170=EDGE_CURVE('',#138,#128,#94,.T.);
#171=EDGE_CURVE('',#137,#133,#74,.T.);
#172=EDGE_CURVE('',#140,#127,#95,.T.);
#173=EDGE_CURVE('',#140,#138,#75,.T.);
#174=EDGE_CURVE('',#140,#141,#76,.T.);
#175=EDGE_CURVE('',#142,#140,#96,.T.);
#176=EDGE_CURVE('',#142,#143,#77,.T.);
#177=EDGE_CURVE('',#143,#141,#97,.T.);
#178=EDGE_CURVE('',#142,#126,#98,.T.);
#179=EDGE_CURVE('',#141,#139,#78,.T.);
#180=EDGE_CURVE('',#144,#125,#99,.T.);
#181=EDGE_CURVE('',#144,#142,#79,.T.);
#182=EDGE_CURVE('',#144,#145,#80,.T.);
#183=EDGE_CURVE('',#135,#144,#100,.T.);
#184=EDGE_CURVE('',#136,#145,#101,.T.);
#185=EDGE_CURVE('',#145,#143,#81,.T.);
#186=ORIENTED_EDGE('',*,*,#146,.T.);
#187=ORIENTED_EDGE('',*,*,#147,.T.);
#188=ORIENTED_EDGE('',*,*,#148,.T.);
#189=ORIENTED_EDGE('',*,*,#149,.T.);
#190=ORIENTED_EDGE('',*,*,#150,.T.);
#191=ORIENTED_EDGE('',*,*,#151,.T.);
#192=ORIENTED_EDGE('',*,*,#152,.T.);
#193=ORIENTED_EDGE('',*,*,#153,.T.);
#194=ORIENTED_EDGE('',*,*,#154,.F.);
#195=ORIENTED_EDGE('',*,*,#155,.F.);
#196=ORIENTED_EDGE('',*,*,#156,.T.);
#197=ORIENTED_EDGE('',*,*,#157,.T.);
#198=ORIENTED_EDGE('',*,*,#158,.T.);
#199=ORIENTED_EDGE('',*,*,#146,.F.);
#200=ORIENTED_EDGE('',*,*,#159,.F.);
#201=ORIENTED_EDGE('',*,*,#155,.T.);
#202=ORIENTED_EDGE('',*,*,#159,.T.);
#203=ORIENTED_EDGE('',*,*,#153,.F.);
#204=ORIENTED_EDGE('',*,*,#160,.F.);
#205=ORIENTED_EDGE('',*,*,#161,.T.);
#206=ORIENTED_EDGE('',*,*,#158,.F.);
#207=ORIENTED_EDGE('',*,*,#162,.T.);
#208=ORIENTED_EDGE('',*,*,#163,.T.);
#209=ORIENTED_EDGE('',*,*,#147,.F.);
#210=ORIENTED_EDGE('',*,*,#154,.T.);
#211=ORIENTED_EDGE('',*,*,#164,.T.);
#212=ORIENTED_EDGE('',*,*,#165,.F.);
#213=ORIENTED_EDGE('',*,*,#162,.F.);
#214=ORIENTED_EDGE('',*,*,#166,.F.);
#215=ORIENTED_EDGE('',*,*,#167,.F.);
#216=ORIENTED_EDGE('',*,*,#168,.T.);
#217=ORIENTED_EDGE('',*,*,#169,.T.);
#218=ORIENTED_EDGE('',*,*,#160,.T.);
#219=ORIENTED_EDGE('',*,*,#152,.F.);
#220=ORIENTED_EDGE('',*,*,#170,.F.);
#221=ORIENTED_EDGE('',*,*,#167,.T.);
#222=ORIENTED_EDGE('',*,*,#156,.F.);
#223=ORIENTED_EDGE('',*,*,#161,.F.);
#224=ORIENTED_EDGE('',*,*,#166,.T.);
#225=ORIENTED_EDGE('',*,*,#171,.T.);
#226=ORIENTED_EDGE('',*,*,#170,.T.);
#227=ORIENTED_EDGE('',*,*,#151,.F.);
#228=ORIENTED_EDGE('',*,*,#172,.F.);
#229=ORIENTED_EDGE('',*,*,#173,.T.);
#230=ORIENTED_EDGE('',*,*,#174,.F.);
#231=ORIENTED_EDGE('',*,*,#175,.F.);
#232=ORIENTED_EDGE('',*,*,#176,.T.);
#233=ORIENTED_EDGE('',*,*,#177,.T.);
#234=ORIENTED_EDGE('',*,*,#172,.T.);
#235=ORIENTED_EDGE('',*,*,#150,.F.);
#236=ORIENTED_EDGE('',*,*,#178,.F.);
#237=ORIENTED_EDGE('',*,*,#175,.T.);
#238=ORIENTED_EDGE('',*,*,#168,.F.);
#239=ORIENTED_EDGE('',*,*,#173,.F.);
#240=ORIENTED_EDGE('',*,*,#174,.T.);
#241=ORIENTED_EDGE('',*,*,#179,.T.);
#242=ORIENTED_EDGE('',*,*,#178,.T.);
#243=ORIENTED_EDGE('',*,*,#149,.F.);
#244=ORIENTED_EDGE('',*,*,#180,.F.);
#245=ORIENTED_EDGE('',*,*,#181,.T.);
#246=ORIENTED_EDGE('',*,*,#182,.F.);
#247=ORIENTED_EDGE('',*,*,#183,.F.);
#248=ORIENTED_EDGE('',*,*,#165,.T.);
#249=ORIENTED_EDGE('',*,*,#184,.T.);
#250=ORIENTED_EDGE('',*,*,#180,.T.);
#251=ORIENTED_EDGE('',*,*,#148,.F.);
#252=ORIENTED_EDGE('',*,*,#163,.F.);
#253=ORIENTED_EDGE('',*,*,#183,.T.);
#254=ORIENTED_EDGE('',*,*,#176,.F.);
#255=ORIENTED_EDGE('',*,*,#181,.F.);
#256=ORIENTED_EDGE('',*,*,#182,.T.);
#257=ORIENTED_EDGE('',*,*,#185,.T.);
#258=ORIENTED_EDGE('',*,*,#171,.F.);
#259=ORIENTED_EDGE('',*,*,#169,.F.);
#260=ORIENTED_EDGE('',*,*,#179,.F.);
#261=ORIENTED_EDGE('',*,*,#177,.F.);
#262=ORIENTED_EDGE('',*,*,#185,.F.);
#263=ORIENTED_EDGE('',*,*,#184,.F.);
#264=ORIENTED_EDGE('',*,*,#164,.F.);
#265=ORIENTED_EDGE('',*,*,#157,.F.);
#266=PLANE('',#329);
#267=PLANE('',#337);
#268=PLANE('',#347);
#269=PLANE('',#354);
#270=PLANE('',#360);
#271=PLANE('',#362);
#272=STYLED_ITEM('',(#589),#291);
#273=STYLED_ITEM('',(#589),#292);
#274=STYLED_ITEM('',(#589),#293);
#275=STYLED_ITEM('',(#589),#294);
#276=STYLED_ITEM('',(#589),#295);
#277=STYLED_ITEM('',(#589),#296);
#278=STYLED_ITEM('',(#589),#297);
#279=STYLED_ITEM('',(#589),#298);
#280=STYLED_ITEM('',(#589),#299);
#281=STYLED_ITEM('',(#589),#300);
#282=STYLED_ITEM('',(#589),#301);
#283=STYLED_ITEM('',(#589),#302);
#284=STYLED_ITEM('',(#589),#303);
#285=STYLED_ITEM('',(#589),#304);
#286=STYLED_ITEM('',(#589),#305);
#287=STYLED_ITEM('',(#589),#306);
#288=STYLED_ITEM('',(#589),#307);
#289=STYLED_ITEM('',(#589),#308);
#290=STYLED_ITEM('',(#588),#13);
#291=ADVANCED_FACE('',(#26),#266,.T.);
#292=ADVANCED_FACE('',(#27),#18,.T.);
#293=ADVANCED_FACE('',(#28),#267,.T.);
#294=ADVANCED_FACE('',(#29),#19,.T.);
#295=ADVANCED_FACE('',(#30),#20,.T.);
#296=ADVANCED_FACE('',(#31),#14,.F.);
#297=ADVANCED_FACE('',(#32),#21,.T.);
#298=ADVANCED_FACE('',(#33),#268,.T.);
#299=ADVANCED_FACE('',(#34),#15,.F.);
#300=ADVANCED_FACE('',(#35),#22,.T.);
#301=ADVANCED_FACE('',(#36),#23,.T.);
#302=ADVANCED_FACE('',(#37),#269,.T.);
#303=ADVANCED_FACE('',(#38),#16,.F.);
#304=ADVANCED_FACE('',(#39),#24,.T.);
#305=ADVANCED_FACE('',(#40),#25,.T.);
#306=ADVANCED_FACE('',(#41),#270,.T.);
#307=ADVANCED_FACE('',(#42),#17,.F.);
#308=ADVANCED_FACE('',(#43),#271,.T.);
#309=CLOSED_SHELL('',(#291,#292,#293,#294,#295,#296,#297,#298,#299,#300,
#301,#302,#303,#304,#305,#306,#307,#308));
#310=DERIVED_UNIT_ELEMENT(#312,1.);
#311=DERIVED_UNIT_ELEMENT(#573,3.);
#312=(
MASS_UNIT()
NAMED_UNIT(*)
SI_UNIT($,.GRAM.)
);
#313=DERIVED_UNIT((#310,#311));
#314=MEASURE_REPRESENTATION_ITEM('density measure',
POSITIVE_RATIO_MEASURE(0.357272727273),#313);
#315=PROPERTY_DEFINITION_REPRESENTATION(#320,#317);
#316=PROPERTY_DEFINITION_REPRESENTATION(#321,#318);
#317=REPRESENTATION('material name',(#319),#570);
#318=REPRESENTATION('density',(#314),#570);
#319=DESCRIPTIVE_REPRESENTATION_ITEM('PC/ABS-Kunststoff',
'PC/ABS-Kunststoff');
#320=PROPERTY_DEFINITION('material property','material name',#580);
#321=PROPERTY_DEFINITION('material property','density of part',#580);
#322=DATE_TIME_ROLE('creation_date');
#323=APPLIED_DATE_AND_TIME_ASSIGNMENT(#324,#322,(#580));
#324=DATE_AND_TIME(#325,#326);
#325=CALENDAR_DATE(2019,7,6);
#326=LOCAL_TIME(15,40,14.,#327);
#327=COORDINATED_UNIVERSAL_TIME_OFFSET(0,0,.BEHIND.);
#328=AXIS2_PLACEMENT_3D('placement',#453,#363,#364);
#329=AXIS2_PLACEMENT_3D('',#454,#365,#366);
#330=AXIS2_PLACEMENT_3D('',#459,#368,#369);
#331=AXIS2_PLACEMENT_3D('',#463,#371,#372);
#332=AXIS2_PLACEMENT_3D('',#467,#374,#375);
#333=AXIS2_PLACEMENT_3D('',#470,#377,#378);
#334=AXIS2_PLACEMENT_3D('',#471,#379,#380);
#335=AXIS2_PLACEMENT_3D('',#474,#381,#382);
#336=AXIS2_PLACEMENT_3D('',#478,#384,#385);
#337=AXIS2_PLACEMENT_3D('',#480,#387,#388);
#338=AXIS2_PLACEMENT_3D('',#483,#391,#392);
#339=AXIS2_PLACEMENT_3D('',#486,#394,#395);
#340=AXIS2_PLACEMENT_3D('',#487,#396,#397);
#341=AXIS2_PLACEMENT_3D('',#489,#398,#399);
#342=AXIS2_PLACEMENT_3D('',#501,#401,#402);
#343=AXIS2_PLACEMENT_3D('',#502,#403,#404);
#344=AXIS2_PLACEMENT_3D('',#503,#405,#406);
#345=AXIS2_PLACEMENT_3D('',#505,#407,#408);
#346=AXIS2_PLACEMENT_3D('',#509,#410,#411);
#347=AXIS2_PLACEMENT_3D('',#511,#413,#414);
#348=AXIS2_PLACEMENT_3D('',#522,#416,#417);
#349=AXIS2_PLACEMENT_3D('',#523,#418,#419);
#350=AXIS2_PLACEMENT_3D('',#526,#421,#422);
#351=AXIS2_PLACEMENT_3D('',#527,#423,#424);
#352=AXIS2_PLACEMENT_3D('',#529,#425,#426);
#353=AXIS2_PLACEMENT_3D('',#533,#428,#429);
#354=AXIS2_PLACEMENT_3D('',#535,#431,#432);
#355=AXIS2_PLACEMENT_3D('',#546,#434,#435);
#356=AXIS2_PLACEMENT_3D('',#547,#436,#437);
#357=AXIS2_PLACEMENT_3D('',#550,#439,#440);
#358=AXIS2_PLACEMENT_3D('',#551,#441,#442);
#359=AXIS2_PLACEMENT_3D('',#553,#443,#444);
#360=AXIS2_PLACEMENT_3D('',#556,#447,#448);
#361=AXIS2_PLACEMENT_3D('',#566,#449,#450);
#362=AXIS2_PLACEMENT_3D('',#567,#451,#452);
#363=DIRECTION('axis',(0.,0.,1.));
#364=DIRECTION('refdir',(1.,0.,0.));
#365=DIRECTION('center_axis',(0.,0.,-1.));
#366=DIRECTION('ref_axis',(1.,0.,0.));
#367=DIRECTION('',(0.,-1.,0.));
#368=DIRECTION('center_axis',(0.,0.,-1.));
#369=DIRECTION('ref_axis',(1.,0.,0.));
#370=DIRECTION('',(-1.,0.,0.));
#371=DIRECTION('center_axis',(0.,0.,-1.));
#372=DIRECTION('ref_axis',(1.,0.,0.));
#373=DIRECTION('',(0.,1.,0.));
#374=DIRECTION('center_axis',(0.,0.,-1.));
#375=DIRECTION('ref_axis',(1.,0.,0.));
#376=DIRECTION('',(1.,0.,0.));
#377=DIRECTION('center_axis',(0.,0.,-1.));
#378=DIRECTION('ref_axis',(1.,0.,0.));
#379=DIRECTION('center_axis',(0.,1.,0.));
#380=DIRECTION('ref_axis',(1.,0.,3.5527136788005E-16));
#381=DIRECTION('center_axis',(0.,-1.,0.));
#382=DIRECTION('ref_axis',(1.,0.,0.));
#383=DIRECTION('',(0.,-1.,0.));
#384=DIRECTION('center_axis',(0.,-1.,0.));
#385=DIRECTION('ref_axis',(1.,0.,0.));
#386=DIRECTION('',(0.,-1.,0.));
#387=DIRECTION('center_axis',(1.,0.,0.));
#388=DIRECTION('ref_axis',(0.,0.,1.));
#389=DIRECTION('',(0.,0.,-1.));
#390=DIRECTION('',(0.,0.,-1.));
#391=DIRECTION('center_axis',(0.,0.,1.));
#392=DIRECTION('ref_axis',(1.,0.,0.));
#393=DIRECTION('',(0.,0.,-1.));
#394=DIRECTION('center_axis',(0.,0.,-1.));
#395=DIRECTION('ref_axis',(1.,0.,0.));
#396=DIRECTION('center_axis',(0.,0.,1.));
#397=DIRECTION('ref_axis',(1.,0.,0.));
#398=DIRECTION('center_axis',(0.,0.,-1.));
#399=DIRECTION('ref_axis',(1.,0.,0.));
#400=DIRECTION('',(0.,0.,-1.));
#401=DIRECTION('center_axis',(0.,0.,-1.));
#402=DIRECTION('ref_axis',(1.,0.,0.));
#403=DIRECTION('center_axis',(-1.,0.,0.));
#404=DIRECTION('ref_axis',(0.,-1.,0.));
#405=DIRECTION('center_axis',(-1.,0.,0.));
#406=DIRECTION('ref_axis',(0.,1.,3.5527136788005E-16));
#407=DIRECTION('center_axis',(1.,0.,0.));
#408=DIRECTION('ref_axis',(0.,1.,0.));
#409=DIRECTION('',(1.,0.,0.));
#410=DIRECTION('center_axis',(1.,0.,0.));
#411=DIRECTION('ref_axis',(0.,1.,0.));
#412=DIRECTION('',(1.,0.,0.));
#413=DIRECTION('center_axis',(0.,1.,0.));
#414=DIRECTION('ref_axis',(0.,0.,1.));
#415=DIRECTION('',(0.,0.,-1.));
#416=DIRECTION('center_axis',(0.,0.,-1.));
#417=DIRECTION('ref_axis',(1.,0.,0.));
#418=DIRECTION('center_axis',(0.,0.,1.));
#419=DIRECTION('ref_axis',(1.,0.,0.));
#420=DIRECTION('',(0.,0.,-1.));
#421=DIRECTION('center_axis',(0.,0.,-1.));
#422=DIRECTION('ref_axis',(1.,0.,0.));
#423=DIRECTION('center_axis',(0.,-1.,0.));
#424=DIRECTION('ref_axis',(-1.,0.,3.5527136788005E-16));
#425=DIRECTION('center_axis',(0.,1.,0.));
#426=DIRECTION('ref_axis',(-1.,0.,0.));
#427=DIRECTION('',(0.,1.,0.));
#428=DIRECTION('center_axis',(0.,1.,0.));
#429=DIRECTION('ref_axis',(-1.,0.,0.));
#430=DIRECTION('',(0.,1.,0.));
#431=DIRECTION('center_axis',(-1.,0.,0.));
#432=DIRECTION('ref_axis',(0.,0.,1.));
#433=DIRECTION('',(0.,0.,-1.));
#434=DIRECTION('center_axis',(0.,0.,-1.));
#435=DIRECTION('ref_axis',(1.,0.,0.));
#436=DIRECTION('center_axis',(0.,0.,1.));
#437=DIRECTION('ref_axis',(1.,0.,0.));
#438=DIRECTION('',(0.,0.,-1.));
#439=DIRECTION('center_axis',(0.,0.,-1.));
#440=DIRECTION('ref_axis',(1.,0.,0.));
#441=DIRECTION('center_axis',(1.,0.,0.));
#442=DIRECTION('ref_axis',(0.,-1.,3.5527136788005E-16));
#443=DIRECTION('center_axis',(-1.,0.,0.));
#444=DIRECTION('ref_axis',(0.,-1.,0.));
#445=DIRECTION('',(-1.,0.,0.));
#446=DIRECTION('',(-1.,0.,0.));
#447=DIRECTION('center_axis',(0.,-1.,0.));
#448=DIRECTION('ref_axis',(0.,0.,1.));
#449=DIRECTION('center_axis',(0.,0.,-1.));
#450=DIRECTION('ref_axis',(1.,0.,0.));
#451=DIRECTION('center_axis',(2.96059473233375E-16,0.,1.));
#452=DIRECTION('ref_axis',(-1.,0.,2.96059473233375E-16));
#453=CARTESIAN_POINT('',(0.,0.,0.));
#454=CARTESIAN_POINT('Origin',(118.,4.,0.));
#455=CARTESIAN_POINT('',(120.,116.,0.));
#456=CARTESIAN_POINT('',(120.,4.,0.));
#457=CARTESIAN_POINT('',(120.,116.,0.));
#458=CARTESIAN_POINT('',(116.,0.,0.));
#459=CARTESIAN_POINT('Origin',(116.,4.,0.));
#460=CARTESIAN_POINT('',(4.,0.,0.));
#461=CARTESIAN_POINT('',(116.,0.,0.));
#462=CARTESIAN_POINT('',(0.,4.,0.));
#463=CARTESIAN_POINT('Origin',(4.,4.,0.));
#464=CARTESIAN_POINT('',(0.,116.,0.));
#465=CARTESIAN_POINT('',(0.,4.,0.));
#466=CARTESIAN_POINT('',(4.,120.,0.));
#467=CARTESIAN_POINT('Origin',(4.,116.,0.));
#468=CARTESIAN_POINT('',(116.,120.,0.));
#469=CARTESIAN_POINT('',(4.,120.,0.));
#470=CARTESIAN_POINT('Origin',(116.,116.,0.));
#471=CARTESIAN_POINT('Origin',(117.5,116.,1.5));
#472=CARTESIAN_POINT('',(120.,4.,1.5));
#473=CARTESIAN_POINT('',(117.5,4.,4.));
#474=CARTESIAN_POINT('Origin',(117.5,4.,1.5));
#475=CARTESIAN_POINT('',(120.,116.,1.5));
#476=CARTESIAN_POINT('',(120.,116.,1.5));
#477=CARTESIAN_POINT('',(117.5,116.,4.));
#478=CARTESIAN_POINT('Origin',(117.5,116.,1.5));
#479=CARTESIAN_POINT('',(117.5,116.,4.));
#480=CARTESIAN_POINT('Origin',(120.,116.,1.5));
#481=CARTESIAN_POINT('',(120.,4.,0.75));
#482=CARTESIAN_POINT('',(120.,116.,0.75));
#483=CARTESIAN_POINT('Origin',(116.,116.,0.75));
#484=CARTESIAN_POINT('',(116.,120.,1.5));
#485=CARTESIAN_POINT('',(116.,120.,0.75));
#486=CARTESIAN_POINT('Origin',(116.,116.,1.5));
#487=CARTESIAN_POINT('Origin',(116.,4.,0.75));
#488=CARTESIAN_POINT('',(116.,0.,1.5));
#489=CARTESIAN_POINT('Origin',(116.,4.,1.5));
#490=CARTESIAN_POINT('',(116.,0.,0.75));
#491=CARTESIAN_POINT('Ctrl Pts',(117.5,4.,4.));
#492=CARTESIAN_POINT('Ctrl Pts',(117.5,2.50000000000001,4.));
#493=CARTESIAN_POINT('Ctrl Pts',(116.,2.50000000000001,4.));
#494=CARTESIAN_POINT('Ctrl Pts',(120.,4.,4.00000000000001));
#495=CARTESIAN_POINT('Ctrl Pts',(120.,-2.22044604925031E-15,4.00000000000001));
#496=CARTESIAN_POINT('Ctrl Pts',(116.,-3.33066907387547E-15,4.00000000000001));
#497=CARTESIAN_POINT('Ctrl Pts',(120.,4.,1.5));
#498=CARTESIAN_POINT('Ctrl Pts',(120.,-2.22044604925031E-15,1.5));
#499=CARTESIAN_POINT('Ctrl Pts',(116.,-3.33066907387547E-15,1.5));
#500=CARTESIAN_POINT('',(116.,2.5,4.));
#501=CARTESIAN_POINT('Origin',(116.,4.,4.));
#502=CARTESIAN_POINT('Origin',(116.,2.5,1.5));
#503=CARTESIAN_POINT('Origin',(4.,117.5,1.5));
#504=CARTESIAN_POINT('',(116.,117.5,4.));
#505=CARTESIAN_POINT('Origin',(116.,117.5,1.5));
#506=CARTESIAN_POINT('',(4.,120.,1.5));
#507=CARTESIAN_POINT('',(4.,120.,1.5));
#508=CARTESIAN_POINT('',(4.,117.5,4.));
#509=CARTESIAN_POINT('Origin',(4.,117.5,1.5));
#510=CARTESIAN_POINT('',(4.,117.5,4.));
#511=CARTESIAN_POINT('Origin',(4.,120.,1.5));
#512=CARTESIAN_POINT('',(4.,120.,0.75));
#513=CARTESIAN_POINT('Ctrl Pts',(116.,117.5,4.));
#514=CARTESIAN_POINT('Ctrl Pts',(117.5,117.5,4.));
#515=CARTESIAN_POINT('Ctrl Pts',(117.5,116.,4.));
#516=CARTESIAN_POINT('Ctrl Pts',(116.,120.,4.00000000000001));
#517=CARTESIAN_POINT('Ctrl Pts',(120.,120.,4.00000000000001));
#518=CARTESIAN_POINT('Ctrl Pts',(120.,116.,4.00000000000001));
#519=CARTESIAN_POINT('Ctrl Pts',(116.,120.,1.5));
#520=CARTESIAN_POINT('Ctrl Pts',(120.,120.,1.5));
#521=CARTESIAN_POINT('Ctrl Pts',(120.,116.,1.5));
#522=CARTESIAN_POINT('Origin',(116.,116.,4.));
#523=CARTESIAN_POINT('Origin',(4.,116.,0.75));
#524=CARTESIAN_POINT('',(0.,116.,1.5));
#525=CARTESIAN_POINT('',(0.,116.,0.75));
#526=CARTESIAN_POINT('Origin',(4.,116.,1.5));
#527=CARTESIAN_POINT('Origin',(2.5,4.,1.5));
#528=CARTESIAN_POINT('',(2.5,116.,4.));
#529=CARTESIAN_POINT('Origin',(2.5,116.,1.5));
#530=CARTESIAN_POINT('',(0.,4.,1.5));
#531=CARTESIAN_POINT('',(0.,4.,1.5));
#532=CARTESIAN_POINT('',(2.5,4.,4.));
#533=CARTESIAN_POINT('Origin',(2.5,4.,1.5));
#534=CARTESIAN_POINT('',(2.5,4.,4.));
#535=CARTESIAN_POINT('Origin',(0.,4.,1.5));
#536=CARTESIAN_POINT('',(0.,4.,0.75));
#537=CARTESIAN_POINT('Ctrl Pts',(2.50000000000001,116.,4.));
#538=CARTESIAN_POINT('Ctrl Pts',(2.50000000000001,117.5,4.));
#539=CARTESIAN_POINT('Ctrl Pts',(4.,117.5,4.));
#540=CARTESIAN_POINT('Ctrl Pts',(0.,116.,4.00000000000001));
#541=CARTESIAN_POINT('Ctrl Pts',(1.11022302462516E-15,120.,4.00000000000001));
#542=CARTESIAN_POINT('Ctrl Pts',(4.,120.,4.00000000000001));
#543=CARTESIAN_POINT('Ctrl Pts',(0.,116.,1.5));
#544=CARTESIAN_POINT('Ctrl Pts',(1.11022302462516E-15,120.,1.5));
#545=CARTESIAN_POINT('Ctrl Pts',(4.,120.,1.5));
#546=CARTESIAN_POINT('Origin',(4.,116.,4.));
#547=CARTESIAN_POINT('Origin',(4.,4.,0.75));
#548=CARTESIAN_POINT('',(4.,0.,1.5));
#549=CARTESIAN_POINT('',(4.,0.,0.75));
#550=CARTESIAN_POINT('Origin',(4.,4.,1.5));
#551=CARTESIAN_POINT('Origin',(116.,2.5,1.5));
#552=CARTESIAN_POINT('',(4.,2.5,4.));
#553=CARTESIAN_POINT('Origin',(4.,2.5,1.5));
#554=CARTESIAN_POINT('',(116.,0.,1.5));
#555=CARTESIAN_POINT('',(116.,2.5,4.));
#556=CARTESIAN_POINT('Origin',(116.,0.,1.5));
#557=CARTESIAN_POINT('Ctrl Pts',(4.,2.5,4.));
#558=CARTESIAN_POINT('Ctrl Pts',(2.5,2.5,4.));
#559=CARTESIAN_POINT('Ctrl Pts',(2.5,4.,4.));
#560=CARTESIAN_POINT('Ctrl Pts',(4.,0.,4.));
#561=CARTESIAN_POINT('Ctrl Pts',(1.11022302462516E-15,1.11022302462516E-15,
4.));
#562=CARTESIAN_POINT('Ctrl Pts',(0.,4.,4.));
#563=CARTESIAN_POINT('Ctrl Pts',(4.,0.,1.5));
#564=CARTESIAN_POINT('Ctrl Pts',(1.11022302462516E-15,1.11022302462516E-15,
1.5));
#565=CARTESIAN_POINT('Ctrl Pts',(0.,4.,1.5));
#566=CARTESIAN_POINT('Origin',(4.,4.,4.));
#567=CARTESIAN_POINT('Origin',(116.75,4.,4.));
#568=UNCERTAINTY_MEASURE_WITH_UNIT(LENGTH_MEASURE(0.01),#572,
'DISTANCE_ACCURACY_VALUE',
'Maximum model space distance between geometric entities at asserted c
onnectivities');
#569=UNCERTAINTY_MEASURE_WITH_UNIT(LENGTH_MEASURE(0.01),#572,
'DISTANCE_ACCURACY_VALUE',
'Maximum model space distance between geometric entities at asserted c
onnectivities');
#570=(
GEOMETRIC_REPRESENTATION_CONTEXT(3)
GLOBAL_UNCERTAINTY_ASSIGNED_CONTEXT((#568))
GLOBAL_UNIT_ASSIGNED_CONTEXT((#572,#575,#574))
REPRESENTATION_CONTEXT('','3D')
);
#571=(
GEOMETRIC_REPRESENTATION_CONTEXT(3)
GLOBAL_UNCERTAINTY_ASSIGNED_CONTEXT((#569))
GLOBAL_UNIT_ASSIGNED_CONTEXT((#572,#575,#574))
REPRESENTATION_CONTEXT('','3D')
);
#572=(
LENGTH_UNIT()
NAMED_UNIT(*)
SI_UNIT(.MILLI.,.METRE.)
);
#573=(
LENGTH_UNIT()
NAMED_UNIT(*)
SI_UNIT(.CENTI.,.METRE.)
);
#574=(
NAMED_UNIT(*)
SI_UNIT($,.STERADIAN.)
SOLID_ANGLE_UNIT()
);
#575=(
NAMED_UNIT(*)
PLANE_ANGLE_UNIT()
SI_UNIT($,.RADIAN.)
);
#576=SHAPE_DEFINITION_REPRESENTATION(#577,#578);
#577=PRODUCT_DEFINITION_SHAPE('',$,#580);
#578=SHAPE_REPRESENTATION('',(#328),#570);
#579=PRODUCT_DEFINITION_CONTEXT('part definition',#584,'design');
#580=PRODUCT_DEFINITION('AI-1142_Abdeckkappe_120x120-8',
'AI-1142_Abdeckkappe_120x120-8',#581,#579);
#581=PRODUCT_DEFINITION_FORMATION('',$,#586);
#582=PRODUCT_RELATED_PRODUCT_CATEGORY('AI-1142_Abdeckkappe_120x120-8',
'AI-1142_Abdeckkappe_120x120-8',(#586));
#583=APPLICATION_PROTOCOL_DEFINITION('international standard',
'automotive_design',2009,#584);
#584=APPLICATION_CONTEXT(
'Core Data for Automotive Mechanical Design Process');
#585=PRODUCT_CONTEXT('part definition',#584,'mechanical');
#586=PRODUCT('AI-1142_Abdeckkappe_120x120-8',
'AI-1142_Abdeckkappe_120x120-8',$,(#585));
#587=PRESENTATION_STYLE_ASSIGNMENT((#590));
#588=PRESENTATION_STYLE_ASSIGNMENT((#591));
#589=PRESENTATION_STYLE_ASSIGNMENT((#592));
#590=SURFACE_STYLE_USAGE(.BOTH.,#593);
#591=SURFACE_STYLE_USAGE(.BOTH.,#594);
#592=SURFACE_STYLE_USAGE(.BOTH.,#595);
#593=SURFACE_SIDE_STYLE('',(#596));
#594=SURFACE_SIDE_STYLE('',(#597));
#595=SURFACE_SIDE_STYLE('',(#598));
#596=SURFACE_STYLE_FILL_AREA(#599);
#597=SURFACE_STYLE_FILL_AREA(#600);
#598=SURFACE_STYLE_FILL_AREA(#601);
#599=FILL_AREA_STYLE('',(#602));
#600=FILL_AREA_STYLE('',(#603));
#601=FILL_AREA_STYLE('',(#604));
#602=FILL_AREA_STYLE_COLOUR('',#605);
#603=FILL_AREA_STYLE_COLOUR('',#606);
#604=FILL_AREA_STYLE_COLOUR('',#607);
#605=COLOUR_RGB('',0.92156862745098,0.92156862745098,0.92156862745098);
#606=COLOUR_RGB('',0.392156862745098,0.392156862745098,0.392156862745098);
#607=COLOUR_RGB('',0.250980392156863,0.250980392156863,0.250980392156863);
ENDSEC;
END-ISO-10303-21;
